ISO-10303-21;
HEADER;
FILE_DESCRIPTION (( 'STEP AP203' ),
    '1' );
FILE_NAME ('QB-CTZHWP-10-1310-M.STEP',
    '2020-12-24T01:33:51',
    ( '' ),
    ( '' ),
    'SwSTEP 2.0',
    'SolidWorks 2020',
    '' );
FILE_SCHEMA (( 'CONFIG_CONTROL_DESIGN' ));
ENDSEC;

DATA;
#1 = ADVANCED_FACE ( 'NONE', ( #43 ), #70, .F. ) ;
#2 = CARTESIAN_POINT ( 'NONE',  ( 1.250000000000000444, 0.000000000000000000, 0.000000000000000000 ) ) ;
#3 = DIRECTION ( 'NONE',  ( 0.000000000000000000, 0.000000000000000000, 1.000000000000000000 ) ) ;
#4 = EDGE_CURVE ( 'NONE', #111, #110, #187, .T. ) ;
#5 = CARTESIAN_POINT ( 'NONE',  ( -1.614212418857619014, 0.000000000000000000, 0.000000000000000000 ) ) ;
#6 = CYLINDRICAL_SURFACE ( 'NONE', #64, 5.000000000000000888 ) ;
#7 = CYLINDRICAL_SURFACE ( 'NONE', #118, 5.000000000000000888 ) ;
#8 = CARTESIAN_POINT ( 'NONE',  ( 3.000000000000000000, 0.000000000000000000, 5.000000000000001776 ) ) ;
#9 = FACE_OUTER_BOUND ( 'NONE', #205, .T. ) ;
#10 = ORIENTED_EDGE ( 'NONE', *, *, #90, .F. ) ;
#11 = DIRECTION ( 'NONE',  ( 1.000000000000000000, 0.000000000000000000, 0.000000000000000000 ) ) ;
#12 = CC_DESIGN_APPROVAL ( #26, ( #81 ) ) ;
#13 = VERTEX_POINT ( 'NONE', #72 ) ;
#14 = COORDINATED_UNIVERSAL_TIME_OFFSET ( 8, 0, .AHEAD. ) ;
#15 = PLANE ( 'NONE',  #17 ) ;
#16 = ORIENTED_EDGE ( 'NONE', *, *, #301, .T. ) ;
#17 = AXIS2_PLACEMENT_3D ( 'NONE', #297, #173, #134 ) ;
#18 = ORIENTED_EDGE ( 'NONE', *, *, #142, .F. ) ;
#19 = VECTOR ( 'NONE', #165, 1000.000000000000000 ) ;
#20 = APPROVAL_ROLE ( '' ) ;
#21 = ORIENTED_EDGE ( 'NONE', *, *, #4, .F. ) ;
#22 = AXIS2_PLACEMENT_3D ( 'NONE', #189, #214, #53 ) ;
#23 = EDGE_LOOP ( 'NONE', ( #180, #300 ) ) ;
#24 = DIRECTION ( 'NONE',  ( -0.000000000000000000, 0.000000000000000000, 1.000000000000000000 ) ) ;
#25 = DIRECTION ( 'NONE',  ( -1.000000000000000000, -0.000000000000000000, -0.000000000000000000 ) ) ;
#26 = APPROVAL ( #217, 'UNSPECIFIED' ) ;
#27 = DIRECTION ( 'NONE',  ( -1.000000000000000000, -0.000000000000000000, -0.000000000000000000 ) ) ;
#28 = CARTESIAN_POINT ( 'NONE',  ( -1.614212418857619014, 0.000000000000000000, 0.000000000000000000 ) ) ;
#29 = CARTESIAN_POINT ( 'NONE',  ( 3.000000000000000000, 6.123233995736768255E-16, -5.000000000000001776 ) ) ;
#30 = PERSON_AND_ORGANIZATION ( #208, #159 ) ;
#31 = CARTESIAN_POINT ( 'NONE',  ( -1.614212418857619014, 0.000000000000000000, 0.000000000000000000 ) ) ;
#32 = DESIGN_CONTEXT ( 'detailed design', #228, 'design' ) ;
#33 = DIRECTION ( 'NONE',  ( -1.000000000000000000, -0.000000000000000000, -0.000000000000000000 ) ) ;
#34 = DIRECTION ( 'NONE',  ( 0.000000000000000000, 0.000000000000000000, 1.000000000000000000 ) ) ;
#35 = AXIS2_PLACEMENT_3D ( 'NONE', #308, #87, #55 ) ;
#36 = LINE ( 'NONE', #319, #287 ) ;
#37 = EDGE_LOOP ( 'NONE', ( #130, #293 ) ) ;
#38 = CALENDAR_DATE ( 2020, 24, 12 ) ;
#39 = APPROVAL ( #282, 'UNSPECIFIED' ) ;
#40 = VERTEX_POINT ( 'NONE', #178 ) ;
#41 = FACE_OUTER_BOUND ( 'NONE', #79, .T. ) ;
#42 = EDGE_CURVE ( 'NONE', #40, #45, #261, .T. ) ;
#43 = FACE_OUTER_BOUND ( 'NONE', #203, .T. ) ;
#44 = APPLICATION_CONTEXT ( 'configuration controlled 3d designs of mechanical parts and assemblies' ) ;
#45 = VERTEX_POINT ( 'NONE', #109 ) ;
#46 = ORIENTED_EDGE ( 'NONE', *, *, #195, .F. ) ;
#47 = EDGE_CURVE ( 'NONE', #232, #202, #51, .T. ) ;
#48 = ORIENTED_EDGE ( 'NONE', *, *, #42, .F. ) ;
#49 = ADVANCED_FACE ( 'NONE', ( #266 ), #7, .F. ) ;
#50 = AXIS2_PLACEMENT_3D ( 'NONE', #309, #243, #197 ) ;
#51 = CIRCLE ( 'NONE', #305, 5.000000000000000888 ) ;
#52 = COORDINATED_UNIVERSAL_TIME_OFFSET ( 8, 0, .AHEAD. ) ;
#53 = DIRECTION ( 'NONE',  ( 0.000000000000000000, 0.000000000000000000, 1.000000000000000000 ) ) ;
#54 = PERSON_AND_ORGANIZATION_ROLE ( 'design_owner' ) ;
#55 = DIRECTION ( 'NONE',  ( 1.000000000000000000, 0.000000000000000000, 0.000000000000000000 ) ) ;
#56 = CARTESIAN_POINT ( 'NONE',  ( 1.250000000000000444, 6.123233995736766282E-16, -5.000000000000000000 ) ) ;
#57 = PERSON_AND_ORGANIZATION_ROLE ( 'creator' ) ;
#58 = APPROVAL_DATE_TIME ( #283, #26 ) ;
#59 = DIRECTION ( 'NONE',  ( 0.000000000000000000, 0.000000000000000000, 1.000000000000000000 ) ) ;
#60 = DIRECTION ( 'NONE',  ( -1.000000000000000000, -0.000000000000000000, -0.000000000000000000 ) ) ;
#61 = DIRECTION ( 'NONE',  ( 0.000000000000000000, 0.000000000000000000, 1.000000000000000000 ) ) ;
#62 = CARTESIAN_POINT ( 'NONE',  ( -1.250000000000000222, 5.000000000000000000, 0.000000000000000000 ) ) ;
#63 = LINE ( 'NONE', #129, #291 ) ;
#64 = AXIS2_PLACEMENT_3D ( 'NONE', #31, #167, #59 ) ;
#65 = CARTESIAN_POINT ( 'NONE',  ( -1.250000000000000222, 6.123233995736767268E-16, -5.000000000000000888 ) ) ;
#66 = EDGE_CURVE ( 'NONE', #202, #45, #318, .T. ) ;
#67 = ORIENTED_EDGE ( 'NONE', *, *, #128, .T. ) ;
#68 = SHAPE_DEFINITION_REPRESENTATION ( #185, #107 ) ;
#69 = EDGE_CURVE ( 'NONE', #201, #77, #192, .T. ) ;
#70 = CYLINDRICAL_SURFACE ( 'NONE', #95, 5.000000000000000888 ) ;
#71 = CLOSED_SHELL ( 'NONE', ( #260, #240, #104, #236, #49, #1, #161, #181, #278, #222 ) ) ;
#72 = CARTESIAN_POINT ( 'NONE',  ( -3.000000000000000000, 1.555301434917138433E-15, -12.69999999999999929 ) ) ;
#73 = DIRECTION ( 'NONE',  ( 0.000000000000000000, 0.000000000000000000, 1.000000000000000000 ) ) ;
#74 = CARTESIAN_POINT ( 'NONE',  ( -1.250000000000000222, 0.000000000000000000, 0.000000000000000000 ) ) ;
#75 = EDGE_CURVE ( 'NONE', #232, #40, #63, .T. ) ;
#76 = DATE_AND_TIME ( #252, #325 ) ;
#77 = VERTEX_POINT ( 'NONE', #172 ) ;
#78 = DATE_TIME_ROLE ( 'creation_date' ) ;
#79 = EDGE_LOOP ( 'NONE', ( #18, #46 ) ) ;
#80 = VECTOR ( 'NONE', #288, 1000.000000000000000 ) ;
#81 = PRODUCT_DEFINITION ( 'UNKNOWN', '', #186, #32 ) ;
#82 = EDGE_LOOP ( 'NONE', ( #67, #184, #225, #136 ) ) ;
#83 = AXIS2_PLACEMENT_3D ( 'NONE', #126, #60, #269 ) ;
#84 = AXIS2_PLACEMENT_3D ( 'NONE', #231, #234, #295 ) ;
#85 = SECURITY_CLASSIFICATION_LEVEL ( 'unclassified' ) ;
#86 = APPROVAL_ROLE ( '' ) ;
#87 = DIRECTION ( 'NONE',  ( 0.000000000000000000, 0.000000000000000000, 1.000000000000000000 ) ) ;
#88 = PERSON_AND_ORGANIZATION ( #208, #159 ) ;
#89 = FACE_BOUND ( 'NONE', #330, .T. ) ;
#90 = EDGE_CURVE ( 'NONE', #45, #40, #132, .T. ) ;
#91 = PERSON_AND_ORGANIZATION ( #208, #159 ) ;
#92 = CARTESIAN_POINT ( 'NONE',  ( 3.000000000000000000, 12.69999999999999929, 0.000000000000000000 ) ) ;
#93 = UNCERTAINTY_MEASURE_WITH_UNIT (LENGTH_MEASURE( 1.000000000000000082E-05 ), #115, 'distance_accuracy_value', 'NONE');
#94 = CIRCLE ( 'NONE', #286, 5.000000000000000000 ) ;
#95 = AXIS2_PLACEMENT_3D ( 'NONE', #153, #139, #326 ) ;
#96 = DIRECTION ( 'NONE',  ( -1.000000000000000000, -0.000000000000000000, -0.000000000000000000 ) ) ;
#97 = CYLINDRICAL_SURFACE ( 'NONE', #226, 5.000000000000000888 ) ;
#98 = DIRECTION ( 'NONE',  ( -1.000000000000000000, -0.000000000000000000, -0.000000000000000000 ) ) ;
#99 = DATE_AND_TIME ( #38, #117 ) ;
#100 = CYLINDRICAL_SURFACE ( 'NONE', #204, 12.69999999999999929 ) ;
#101 = AXIS2_PLACEMENT_3D ( 'NONE', #121, #96, #171 ) ;
#102 = ORIENTED_EDGE ( 'NONE', *, *, #90, .T. ) ;
#103 = VERTEX_POINT ( 'NONE', #56 ) ;
#104 = ADVANCED_FACE ( 'NONE', ( #123 ), #97, .F. ) ;
#105 = ORIENTED_EDGE ( 'NONE', *, *, #112, .F. ) ;
#106 = AXIS2_PLACEMENT_3D ( 'NONE', #62, #11, #255 ) ;
#107 = ADVANCED_BREP_SHAPE_REPRESENTATION ( 'QB-CTZHWP-10-1310-M', ( #154, #35 ), #218 ) ;
#108 = AXIS2_PLACEMENT_3D ( 'NONE', #290, #263, #223 ) ;
#109 = CARTESIAN_POINT ( 'NONE',  ( -3.000000000000000000, 0.000000000000000000, 5.000000000000000000 ) ) ;
#110 = VERTEX_POINT ( 'NONE', #8 ) ;
#111 = VERTEX_POINT ( 'NONE', #29 ) ;
#112 = EDGE_CURVE ( 'NONE', #13, #77, #199, .T. ) ;
#113 = EDGE_CURVE ( 'NONE', #77, #13, #251, .T. ) ;
#114 = CALENDAR_DATE ( 2020, 24, 12 ) ;
#115 =( LENGTH_UNIT ( ) NAMED_UNIT ( * ) SI_UNIT ( .MILLI., .METRE. ) );
#116 = EDGE_CURVE ( 'NONE', #111, #103, #36, .T. ) ;
#117 = LOCAL_TIME ( 9, 33, 51.00000000000000000, #14 ) ;
#118 = AXIS2_PLACEMENT_3D ( 'NONE', #267, #27, #34 ) ;
#119 = PERSON_AND_ORGANIZATION ( #208, #159 ) ;
#120 = CARTESIAN_POINT ( 'NONE',  ( 3.000000000000000000, 0.000000000000000000, 0.000000000000000000 ) ) ;
#121 = CARTESIAN_POINT ( 'NONE',  ( -3.000000000000000000, 0.000000000000000000, 0.000000000000000000 ) ) ;
#122 = FACE_OUTER_BOUND ( 'NONE', #321, .T. ) ;
#123 = FACE_OUTER_BOUND ( 'NONE', #175, .T. ) ;
#124 = FACE_OUTER_BOUND ( 'NONE', #324, .T. ) ;
#125 = CIRCLE ( 'NONE', #22, 12.69999999999999929 ) ;
#126 = CARTESIAN_POINT ( 'NONE',  ( -3.000000000000000000, 0.000000000000000000, 0.000000000000000000 ) ) ;
#127 = DIRECTION ( 'NONE',  ( -1.000000000000000000, -0.000000000000000000, -0.000000000000000000 ) ) ;
#128 = EDGE_CURVE ( 'NONE', #202, #232, #245, .T. ) ;
#129 = CARTESIAN_POINT ( 'NONE',  ( -1.614212418857619014, 6.123233995736767268E-16, -5.000000000000000888 ) ) ;
#130 = ORIENTED_EDGE ( 'NONE', *, *, #113, .T. ) ;
#131 = APPROVAL_DATE_TIME ( #99, #39 ) ;
#132 = CIRCLE ( 'NONE', #101, 5.000000000000000000 ) ;
#133 = ORIENTED_EDGE ( 'NONE', *, *, #142, .T. ) ;
#134 = DIRECTION ( 'NONE',  ( -0.000000000000000000, 0.000000000000000000, 1.000000000000000000 ) ) ;
#135 = ORIENTED_EDGE ( 'NONE', *, *, #69, .T. ) ;
#136 = ORIENTED_EDGE ( 'NONE', *, *, #66, .F. ) ;
#137 = CIRCLE ( 'NONE', #333, 12.69999999999999929 ) ;
#138 = PERSON_AND_ORGANIZATION ( #208, #159 ) ;
#139 = DIRECTION ( 'NONE',  ( -1.000000000000000000, -0.000000000000000000, -0.000000000000000000 ) ) ;
#140 = CC_DESIGN_PERSON_AND_ORGANIZATION_ASSIGNMENT ( #307, #212, ( #186 ) ) ;
#141 = DIRECTION ( 'NONE',  ( 0.000000000000000000, 0.000000000000000000, 1.000000000000000000 ) ) ;
#142 = EDGE_CURVE ( 'NONE', #332, #103, #148, .T. ) ;
#143 = DIRECTION ( 'NONE',  ( 1.000000000000000000, 0.000000000000000000, 0.000000000000000000 ) ) ;
#144 = CARTESIAN_POINT ( 'NONE',  ( 1.250000000000000444, 0.000000000000000000, 5.000000000000000000 ) ) ;
#145 = CARTESIAN_POINT ( 'NONE',  ( -1.250000000000000222, 0.000000000000000000, 5.000000000000000888 ) ) ;
#146 = COORDINATED_UNIVERSAL_TIME_OFFSET ( 8, 0, .AHEAD. ) ;
#147 = DIRECTION ( 'NONE',  ( 0.000000000000000000, 0.000000000000000000, 1.000000000000000000 ) ) ;
#148 = CIRCLE ( 'NONE', #50, 5.000000000000000000 ) ;
#149 = CARTESIAN_POINT ( 'NONE',  ( -1.614212418857619014, 0.000000000000000000, 5.000000000000000888 ) ) ;
#150 = CARTESIAN_POINT ( 'NONE',  ( 3.000000000000000000, 1.555301434917138433E-15, -12.69999999999999929 ) ) ;
#151 = VERTEX_POINT ( 'NONE', #150 ) ;
#152 = ORIENTED_EDGE ( 'NONE', *, *, #75, .F. ) ;
#153 = CARTESIAN_POINT ( 'NONE',  ( -1.614212418857619014, 0.000000000000000000, 0.000000000000000000 ) ) ;
#154 = MANIFOLD_SOLID_BREP ( 'Ðý×', #71 ) ;
#155 = DIRECTION ( 'NONE',  ( -1.000000000000000000, -0.000000000000000000, -0.000000000000000000 ) ) ;
#156 = COORDINATED_UNIVERSAL_TIME_OFFSET ( 8, 0, .AHEAD. ) ;
#157 = ORIENTED_EDGE ( 'NONE', *, *, #331, .T. ) ;
#158 = CC_DESIGN_DATE_AND_TIME_ASSIGNMENT ( #210, #306, ( #320 ) ) ;
#159 = ORGANIZATION ( 'UNSPECIFIED', 'UNSPECIFIED', '' ) ;
#160 = APPROVAL_DATE_TIME ( #182, #213 ) ;
#161 = ADVANCED_FACE ( 'NONE', ( #89, #312 ), #248, .F. ) ;
#162 = DIRECTION ( 'NONE',  ( -1.000000000000000000, -0.000000000000000000, -0.000000000000000000 ) ) ;
#163 =( NAMED_UNIT ( * ) SI_UNIT ( $, .STERADIAN. ) SOLID_ANGLE_UNIT ( ) );
#164 = CC_DESIGN_PERSON_AND_ORGANIZATION_ASSIGNMENT ( #88, #310, ( #320 ) ) ;
#165 = DIRECTION ( 'NONE',  ( -1.000000000000000000, -0.000000000000000000, -0.000000000000000000 ) ) ;
#166 = APPROVAL_PERSON_ORGANIZATION ( #30, #26, #86 ) ;
#167 = DIRECTION ( 'NONE',  ( -1.000000000000000000, -0.000000000000000000, -0.000000000000000000 ) ) ;
#168 = CARTESIAN_POINT ( 'NONE',  ( 3.000000000000000000, 0.000000000000000000, 12.69999999999999929 ) ) ;
#169 = DIRECTION ( 'NONE',  ( 0.000000000000000000, 0.000000000000000000, -1.000000000000000000 ) ) ;
#170 = CALENDAR_DATE ( 2020, 24, 12 ) ;
#171 = DIRECTION ( 'NONE',  ( 0.000000000000000000, 0.000000000000000000, 1.000000000000000000 ) ) ;
#172 = CARTESIAN_POINT ( 'NONE',  ( -3.000000000000000000, 0.000000000000000000, 12.69999999999999929 ) ) ;
#173 = DIRECTION ( 'NONE',  ( -1.000000000000000000, 0.000000000000000000, -0.000000000000000000 ) ) ;
#174 = PRODUCT ( 'QB-CTZHWP-10-1310-M', 'QB-CTZHWP-10-1310-M', '', ( #284 ) ) ;
#175 = EDGE_LOOP ( 'NONE', ( #21, #329, #257, #254 ) ) ;
#176 = ORIENTED_EDGE ( 'NONE', *, *, #66, .T. ) ;
#177 = AXIS2_PLACEMENT_3D ( 'NONE', #120, #162, #141 ) ;
#178 = CARTESIAN_POINT ( 'NONE',  ( -3.000000000000000000, 6.123233995736766282E-16, -5.000000000000000000 ) ) ;
#179 = CARTESIAN_POINT ( 'NONE',  ( 3.000000000000000000, 0.000000000000000000, 0.000000000000000000 ) ) ;
#180 = ORIENTED_EDGE ( 'NONE', *, *, #128, .F. ) ;
#181 = ADVANCED_FACE ( 'NONE', ( #9 ), #100, .T. ) ;
#182 = DATE_AND_TIME ( #299, #193 ) ;
#183 = VECTOR ( 'NONE', #242, 1000.000000000000000 ) ;
#184 = ORIENTED_EDGE ( 'NONE', *, *, #75, .T. ) ;
#185 = PRODUCT_DEFINITION_SHAPE ( 'NONE', 'NONE',  #81 ) ;
#186 = PRODUCT_DEFINITION_FORMATION_WITH_SPECIFIED_SOURCE ( 'ANY', '', #174, .NOT_KNOWN. ) ;
#187 = CIRCLE ( 'NONE', #84, 5.000000000000001776 ) ;
#188 = APPROVAL_ROLE ( '' ) ;
#189 = CARTESIAN_POINT ( 'NONE',  ( 3.000000000000000000, 0.000000000000000000, 0.000000000000000000 ) ) ;
#190 = PERSON_AND_ORGANIZATION ( #208, #159 ) ;
#191 = APPLICATION_PROTOCOL_DEFINITION ( 'international standard', 'config_control_design', 1994, #44 ) ;
#192 = LINE ( 'NONE', #246, #19 ) ;
#193 = LOCAL_TIME ( 9, 33, 51.00000000000000000, #52 ) ;
#194 = DIRECTION ( 'NONE',  ( 0.000000000000000000, 0.000000000000000000, -1.000000000000000000 ) ) ;
#195 = EDGE_CURVE ( 'NONE', #103, #332, #94, .T. ) ;
#196 = PLANE ( 'NONE',  #106 ) ;
#197 = DIRECTION ( 'NONE',  ( 0.000000000000000000, 0.000000000000000000, 1.000000000000000000 ) ) ;
#198 = APPROVAL_PERSON_ORGANIZATION ( #138, #213, #20 ) ;
#199 = CIRCLE ( 'NONE', #303, 12.69999999999999929 ) ;
#200 = DIRECTION ( 'NONE',  ( -1.000000000000000000, -0.000000000000000000, -0.000000000000000000 ) ) ;
#201 = VERTEX_POINT ( 'NONE', #168 ) ;
#202 = VERTEX_POINT ( 'NONE', #145 ) ;
#203 = EDGE_LOOP ( 'NONE', ( #152, #322, #176, #102 ) ) ;
#204 = AXIS2_PLACEMENT_3D ( 'NONE', #239, #33, #147 ) ;
#205 = EDGE_LOOP ( 'NONE', ( #298, #16, #135, #105 ) ) ;
#206 = ORIENTED_EDGE ( 'NONE', *, *, #4, .T. ) ;
#207 = EDGE_LOOP ( 'NONE', ( #157, #206 ) ) ;
#208 = PERSON ( 'UNSPECIFIED', 'UNSPECIFIED', 'UNSPECIFIED', ('UNSPECIFIED'), ('UNSPECIFIED'), ('UNSPECIFIED') ) ;
#209 = APPROVAL_STATUS ( 'not_yet_approved' ) ;
#210 = DATE_AND_TIME ( #114, #334 ) ;
#211 =( NAMED_UNIT ( * ) PLANE_ANGLE_UNIT ( ) SI_UNIT ( $, .RADIAN. ) );
#212 = PERSON_AND_ORGANIZATION_ROLE ( 'design_supplier' ) ;
#213 = APPROVAL ( #209, 'UNSPECIFIED' ) ;
#214 = DIRECTION ( 'NONE',  ( -1.000000000000000000, -0.000000000000000000, -0.000000000000000000 ) ) ;
#215 = PLANE ( 'NONE',  #258 ) ;
#216 = DIRECTION ( 'NONE',  ( 0.000000000000000000, 0.000000000000000000, 1.000000000000000000 ) ) ;
#217 = APPROVAL_STATUS ( 'not_yet_approved' ) ;
#218 =( GEOMETRIC_REPRESENTATION_CONTEXT ( 3 ) GLOBAL_UNCERTAINTY_ASSIGNED_CONTEXT ( ( #93 ) ) GLOBAL_UNIT_ASSIGNED_CONTEXT ( ( #115, #211, #163 ) ) REPRESENTATION_CONTEXT ( 'NONE', 'WORKASPACE' ) );
#219 = CARTESIAN_POINT ( 'NONE',  ( -1.614212418857619014, 0.000000000000000000, 5.000000000000000888 ) ) ;
#220 = FACE_OUTER_BOUND ( 'NONE', #23, .T. ) ;
#221 = PERSON_AND_ORGANIZATION ( #208, #159 ) ;
#222 = ADVANCED_FACE ( 'NONE', ( #220 ), #196, .F. ) ;
#223 = DIRECTION ( 'NONE',  ( 0.000000000000000000, 0.000000000000000000, -1.000000000000000000 ) ) ;
#224 = CARTESIAN_POINT ( 'NONE',  ( -3.000000000000000000, 0.000000000000000000, 0.000000000000000000 ) ) ;
#225 = ORIENTED_EDGE ( 'NONE', *, *, #42, .T. ) ;
#226 = AXIS2_PLACEMENT_3D ( 'NONE', #5, #241, #61 ) ;
#227 = ORIENTED_EDGE ( 'NONE', *, *, #230, .F. ) ;
#228 = APPLICATION_CONTEXT ( 'configuration controlled 3d designs of mechanical parts and assemblies' ) ;
#229 = FACE_OUTER_BOUND ( 'NONE', #82, .T. ) ;
#230 = EDGE_CURVE ( 'NONE', #201, #151, #137, .T. ) ;
#231 = CARTESIAN_POINT ( 'NONE',  ( 3.000000000000000000, 0.000000000000000000, 0.000000000000000000 ) ) ;
#232 = VERTEX_POINT ( 'NONE', #65 ) ;
#233 = AXIS2_PLACEMENT_3D ( 'NONE', #289, #143, #169 ) ;
#234 = DIRECTION ( 'NONE',  ( -1.000000000000000000, -0.000000000000000000, -0.000000000000000000 ) ) ;
#235 = ORIENTED_EDGE ( 'NONE', *, *, #331, .F. ) ;
#236 = ADVANCED_FACE ( 'NONE', ( #41 ), #15, .F. ) ;
#237 = CC_DESIGN_PERSON_AND_ORGANIZATION_ASSIGNMENT ( #91, #54, ( #174 ) ) ;
#238 = DIRECTION ( 'NONE',  ( -1.000000000000000000, 0.000000000000000000, -0.000000000000000000 ) ) ;
#239 = CARTESIAN_POINT ( 'NONE',  ( -1.614212418857619014, 0.000000000000000000, 0.000000000000000000 ) ) ;
#240 = ADVANCED_FACE ( 'NONE', ( #229 ), #6, .F. ) ;
#241 = DIRECTION ( 'NONE',  ( -1.000000000000000000, -0.000000000000000000, -0.000000000000000000 ) ) ;
#242 = DIRECTION ( 'NONE',  ( -1.000000000000000000, -0.000000000000000000, -0.000000000000000000 ) ) ;
#243 = DIRECTION ( 'NONE',  ( -1.000000000000000000, -0.000000000000000000, -0.000000000000000000 ) ) ;
#244 = APPROVAL_PERSON_ORGANIZATION ( #190, #39, #188 ) ;
#245 = CIRCLE ( 'NONE', #108, 5.000000000000000888 ) ;
#246 = CARTESIAN_POINT ( 'NONE',  ( -1.614212418857619014, 0.000000000000000000, 12.69999999999999929 ) ) ;
#247 = APPLICATION_PROTOCOL_DEFINITION ( 'international standard', 'config_control_design', 1994, #228 ) ;
#248 = PLANE ( 'NONE',  #233 ) ;
#249 = ORIENTED_EDGE ( 'NONE', *, *, #69, .F. ) ;
#250 = ORIENTED_EDGE ( 'NONE', *, *, #113, .F. ) ;
#251 = CIRCLE ( 'NONE', #83, 12.69999999999999929 ) ;
#252 = CALENDAR_DATE ( 2020, 24, 12 ) ;
#253 = PRODUCT_RELATED_PRODUCT_CATEGORY ( 'detail', '', ( #174 ) ) ;
#254 = ORIENTED_EDGE ( 'NONE', *, *, #323, .F. ) ;
#255 = DIRECTION ( 'NONE',  ( 0.000000000000000000, 0.000000000000000000, -1.000000000000000000 ) ) ;
#256 = DIRECTION ( 'NONE',  ( 0.000000000000000000, 0.000000000000000000, 1.000000000000000000 ) ) ;
#257 = ORIENTED_EDGE ( 'NONE', *, *, #195, .T. ) ;
#258 = AXIS2_PLACEMENT_3D ( 'NONE', #92, #238, #24 ) ;
#259 = CC_DESIGN_APPROVAL ( #39, ( #320 ) ) ;
#260 = ADVANCED_FACE ( 'NONE', ( #124 ), #315, .T. ) ;
#261 = CIRCLE ( 'NONE', #296, 5.000000000000000000 ) ;
#262 = LINE ( 'NONE', #280, #183 ) ;
#263 = DIRECTION ( 'NONE',  ( 1.000000000000000000, 0.000000000000000000, 0.000000000000000000 ) ) ;
#264 = FACE_BOUND ( 'NONE', #207, .T. ) ;
#265 = EDGE_CURVE ( 'NONE', #151, #13, #262, .T. ) ;
#266 = FACE_OUTER_BOUND ( 'NONE', #270, .T. ) ;
#267 = CARTESIAN_POINT ( 'NONE',  ( -1.614212418857619014, 0.000000000000000000, 0.000000000000000000 ) ) ;
#268 = DIRECTION ( 'NONE',  ( 1.000000000000000000, 0.000000000000000000, 0.000000000000000000 ) ) ;
#269 = DIRECTION ( 'NONE',  ( 0.000000000000000000, 0.000000000000000000, 1.000000000000000000 ) ) ;
#270 = EDGE_LOOP ( 'NONE', ( #327, #235, #275, #133 ) ) ;
#271 = CC_DESIGN_DATE_AND_TIME_ASSIGNMENT ( #76, #78, ( #81 ) ) ;
#272 = ORIENTED_EDGE ( 'NONE', *, *, #301, .F. ) ;
#273 = DIRECTION ( 'NONE',  ( -1.000000000000000000, -0.000000000000000000, -0.000000000000000000 ) ) ;
#274 = AXIS2_PLACEMENT_3D ( 'NONE', #28, #311, #3 ) ;
#275 = ORIENTED_EDGE ( 'NONE', *, *, #323, .T. ) ;
#276 = CARTESIAN_POINT ( 'NONE',  ( -3.000000000000000000, 0.000000000000000000, 0.000000000000000000 ) ) ;
#277 = ORIENTED_EDGE ( 'NONE', *, *, #265, .T. ) ;
#278 = ADVANCED_FACE ( 'NONE', ( #122, #264 ), #215, .F. ) ;
#279 = LOCAL_TIME ( 9, 33, 51.00000000000000000, #146 ) ;
#280 = CARTESIAN_POINT ( 'NONE',  ( -1.614212418857619014, 1.555301434917138433E-15, -12.69999999999999929 ) ) ;
#281 = COORDINATED_UNIVERSAL_TIME_OFFSET ( 8, 0, .AHEAD. ) ;
#282 = APPROVAL_STATUS ( 'not_yet_approved' ) ;
#283 = DATE_AND_TIME ( #170, #279 ) ;
#284 = MECHANICAL_CONTEXT ( 'NONE', #44, 'mechanical' ) ;
#285 = DIRECTION ( 'NONE',  ( 0.000000000000000000, 0.000000000000000000, 1.000000000000000000 ) ) ;
#286 = AXIS2_PLACEMENT_3D ( 'NONE', #2, #200, #285 ) ;
#287 = VECTOR ( 'NONE', #127, 1000.000000000000000 ) ;
#288 = DIRECTION ( 'NONE',  ( -1.000000000000000000, -0.000000000000000000, -0.000000000000000000 ) ) ;
#289 = CARTESIAN_POINT ( 'NONE',  ( -3.000000000000000000, 5.000000000000000000, 0.000000000000000000 ) ) ;
#290 = CARTESIAN_POINT ( 'NONE',  ( -1.250000000000000222, 0.000000000000000000, 0.000000000000000000 ) ) ;
#291 = VECTOR ( 'NONE', #98, 1000.000000000000000 ) ;
#292 = ORIENTED_EDGE ( 'NONE', *, *, #230, .T. ) ;
#293 = ORIENTED_EDGE ( 'NONE', *, *, #112, .T. ) ;
#294 = CIRCLE ( 'NONE', #177, 5.000000000000001776 ) ;
#295 = DIRECTION ( 'NONE',  ( 0.000000000000000000, 0.000000000000000000, 1.000000000000000000 ) ) ;
#296 = AXIS2_PLACEMENT_3D ( 'NONE', #276, #155, #256 ) ;
#297 = CARTESIAN_POINT ( 'NONE',  ( 1.250000000000000222, 5.000000000000000000, 0.000000000000000000 ) ) ;
#298 = ORIENTED_EDGE ( 'NONE', *, *, #265, .F. ) ;
#299 = CALENDAR_DATE ( 2020, 24, 12 ) ;
#300 = ORIENTED_EDGE ( 'NONE', *, *, #47, .F. ) ;
#301 = EDGE_CURVE ( 'NONE', #151, #201, #125, .T. ) ;
#302 = CC_DESIGN_PERSON_AND_ORGANIZATION_ASSIGNMENT ( #119, #57, ( #186 ) ) ;
#303 = AXIS2_PLACEMENT_3D ( 'NONE', #224, #316, #216 ) ;
#304 = CC_DESIGN_APPROVAL ( #213, ( #186 ) ) ;
#305 = AXIS2_PLACEMENT_3D ( 'NONE', #74, #268, #194 ) ;
#306 = DATE_TIME_ROLE ( 'classification_date' ) ;
#307 = PERSON_AND_ORGANIZATION ( #208, #159 ) ;
#308 = CARTESIAN_POINT ( 'NONE',  ( 0.000000000000000000, 0.000000000000000000, 0.000000000000000000 ) ) ;
#309 = CARTESIAN_POINT ( 'NONE',  ( 1.250000000000000444, 0.000000000000000000, 0.000000000000000000 ) ) ;
#310 = PERSON_AND_ORGANIZATION_ROLE ( 'classification_officer' ) ;
#311 = DIRECTION ( 'NONE',  ( -1.000000000000000000, -0.000000000000000000, -0.000000000000000000 ) ) ;
#312 = FACE_OUTER_BOUND ( 'NONE', #37, .T. ) ;
#313 = VECTOR ( 'NONE', #25, 1000.000000000000000 ) ;
#314 = CC_DESIGN_SECURITY_CLASSIFICATION ( #320, ( #186 ) ) ;
#315 = CYLINDRICAL_SURFACE ( 'NONE', #274, 12.69999999999999929 ) ;
#316 = DIRECTION ( 'NONE',  ( -1.000000000000000000, -0.000000000000000000, -0.000000000000000000 ) ) ;
#317 = PERSON_AND_ORGANIZATION_ROLE ( 'creator' ) ;
#318 = LINE ( 'NONE', #149, #80 ) ;
#319 = CARTESIAN_POINT ( 'NONE',  ( -1.614212418857619014, 6.123233995736767268E-16, -5.000000000000000888 ) ) ;
#320 = SECURITY_CLASSIFICATION ( '', '', #85 ) ;
#321 = EDGE_LOOP ( 'NONE', ( #227, #272 ) ) ;
#322 = ORIENTED_EDGE ( 'NONE', *, *, #47, .T. ) ;
#323 = EDGE_CURVE ( 'NONE', #110, #332, #335, .T. ) ;
#324 = EDGE_LOOP ( 'NONE', ( #292, #277, #250, #249 ) ) ;
#325 = LOCAL_TIME ( 9, 33, 51.00000000000000000, #156 ) ;
#326 = DIRECTION ( 'NONE',  ( 0.000000000000000000, 0.000000000000000000, 1.000000000000000000 ) ) ;
#327 = ORIENTED_EDGE ( 'NONE', *, *, #116, .F. ) ;
#328 = CC_DESIGN_PERSON_AND_ORGANIZATION_ASSIGNMENT ( #221, #317, ( #81 ) ) ;
#329 = ORIENTED_EDGE ( 'NONE', *, *, #116, .T. ) ;
#330 = EDGE_LOOP ( 'NONE', ( #10, #48 ) ) ;
#331 = EDGE_CURVE ( 'NONE', #110, #111, #294, .T. ) ;
#332 = VERTEX_POINT ( 'NONE', #144 ) ;
#333 = AXIS2_PLACEMENT_3D ( 'NONE', #179, #273, #73 ) ;
#334 = LOCAL_TIME ( 9, 33, 51.00000000000000000, #281 ) ;
#335 = LINE ( 'NONE', #219, #313 ) ;
ENDSEC;
END-ISO-10303-21;
